  0
SECTION
  2
HEADER
  9
$ACADVER
  1
AC1015
  9
$ACADMAINTVER
 70
     6
  9
$DWGCODEPAGE
  3
ANSI_1251
  9
$INSBASE
 10
0.0
 20
0.0
 30
0.0
  9
$EXTMIN
 10
1.000000000000000E+20
 20
1.000000000000000E+20
 30
1.000000000000000E+20
  9
$EXTMAX
 10
-1.000000000000000E+20
 20
-1.000000000000000E+20
 30
-1.000000000000000E+20
  9
$LIMMIN
 10
0.0
 20
0.0
  9
$LIMMAX
 10
420.0
 20
297.0
  9
$ORTHOMODE
 70
     0
  9
$REGENMODE
 70
     1
  9
$FILLMODE
 70
     1
  9
$QTEXTMODE
 70
     0
  9
$MIRRTEXT
 70
     0
  9
$LTSCALE
 40
1.0
  9
$ATTMODE
 70
     1
  9
$TEXTSIZE
 40
2.5
  9
$TRACEWID
 40
1.0
  9
$TEXTSTYLE
  7
Standard
  9
$CLAYER
  8
0
  9
$CELTYPE
  6
ByLayer
  9
$CECOLOR
 62
   256
  9
$CELTSCALE
 40
1.0
  9
$DISPSILH
 70
     0
  9
$DIMSCALE
 40
1.0
  9
$DIMASZ
 40
2.5
  9
$DIMEXO
 40
0.625
  9
$DIMDLI
 40
3.75
  9
$DIMRND
 40
0.0
  9
$DIMDLE
 40
0.0
  9
$DIMEXE
 40
1.25
  9
$DIMTP
 40
0.0
  9
$DIMTM
 40
0.0
  9
$DIMTXT
 40
2.5
  9
$DIMCEN
 40
2.5
  9
$DIMTSZ
 40
0.0
  9
$DIMTOL
 70
     0
  9
$DIMLIM
 70
     0
  9
$DIMTIH
 70
     0
  9
$DIMTOH
 70
     0
  9
$DIMSE1
 70
     0
  9
$DIMSE2
 70
     0
  9
$DIMTAD
 70
     1
  9
$DIMZIN
 70
     8
  9
$DIMBLK
  1

  9
$DIMASO
 70
     1
  9
$DIMSHO
 70
     1
  9
$DIMPOST
  1

  9
$DIMAPOST
  1

  9
$DIMALT
 70
     0
  9
$DIMALTD
 70
     3
  9
$DIMALTF
 40
0.03937007874016
  9
$DIMLFAC
 40
1.0
  9
$DIMTOFL
 70
     1
  9
$DIMTVP
 40
0.0
  9
$DIMTIX
 70
     0
  9
$DIMSOXD
 70
     0
  9
$DIMSAH
 70
     0
  9
$DIMBLK1
  1

  9
$DIMBLK2
  1

  9
$DIMSTYLE
  2
ISO-25
  9
$DIMCLRD
 70
     0
  9
$DIMCLRE
 70
     0
  9
$DIMCLRT
 70
     0
  9
$DIMTFAC
 40
1.0
  9
$DIMGAP
 40
0.625
  9
$DIMJUST
 70
     0
  9
$DIMSD1
 70
     0
  9
$DIMSD2
 70
     0
  9
$DIMTOLJ
 70
     0
  9
$DIMTZIN
 70
     8
  9
$DIMALTZ
 70
     0
  9
$DIMALTTZ
 70
     0
  9
$DIMUPT
 70
     0
  9
$DIMDEC
 70
     2
  9
$DIMTDEC
 70
     2
  9
$DIMALTU
 70
     2
  9
$DIMALTTD
 70
     3
  9
$DIMTXSTY
  7
Standard
  9
$DIMAUNIT
 70
     0
  9
$DIMADEC
 70
     0
  9
$DIMALTRND
 40
0.0
  9
$DIMAZIN
 70
     0
  9
$DIMDSEP
 70
    44
  9
$DIMATFIT
 70
     3
  9
$DIMFRAC
 70
     0
  9
$DIMLDRBLK
  1

  9
$DIMLUNIT
 70
     2
  9
$DIMLWD
 70
    -2
  9
$DIMLWE
 70
    -2
  9
$DIMTMOVE
 70
     0
  9
$LUNITS
 70
     2
  9
$LUPREC
 70
     3
  9
$SKETCHINC
 40
1.0
  9
$FILLETRAD
 40
10.0
  9
$AUNITS
 70
     0
  9
$AUPREC
 70
     0
  9
$MENU
  1
.
  9
$ELEVATION
 40
0.0
  9
$PELEVATION
 40
0.0
  9
$THICKNESS
 40
0.0
  9
$LIMCHECK
 70
     0
  9
$CHAMFERA
 40
10.0
  9
$CHAMFERB
 40
10.0
  9
$CHAMFERC
 40
20.0
  9
$CHAMFERD
 40
0.0
  9
$SKPOLY
 70
     0
  9
$TDCREATE
 40
2455022.637359514
  9
$TDUCREATE
 40
2455022.637359514
  9
$TDUPDATE
 40
2456248.601474549
  9
$TDUUPDATE
 40
2456248.601474549
  9
$TDINDWG
 40
0.0000000116
  9
$TDUSRTIMER
 40
2456248.600239167
  9
$USRTIMER
 70
     1
  9
$ANGBASE
 50
0.0
  9
$ANGDIR
 70
     0
  9
$PDMODE
 70
     0
  9
$PDSIZE
 40
0.0
  9
$PLINEWID
 40
0.0
  9
$SPLFRAME
 70
     0
  9
$SPLINETYPE
 70
     6
  9
$SPLINESEGS
 70
     8
  9
$HANDSEED
  5
10A
  9
$SURFTAB1
 70
     6
  9
$SURFTAB2
 70
     6
  9
$SURFTYPE
 70
     6
  9
$SURFU
 70
     6
  9
$SURFV
 70
     6
  9
$UCSBASE
  2

  9
$UCSNAME
  2

  9
$UCSORG
 10
0.0
 20
0.0
 30
0.0
  9
$UCSXDIR
 10
1.0
 20
0.0
 30
0.0
  9
$UCSYDIR
 10
0.0
 20
1.0
 30
0.0
  9
$UCSORTHOREF
  2

  9
$UCSORTHOVIEW
 70
     0
  9
$UCSORGTOP
 10
0.0
 20
0.0
 30
0.0
  9
$UCSORGBOTTOM
 10
0.0
 20
0.0
 30
0.0
  9
$UCSORGLEFT
 10
0.0
 20
0.0
 30
0.0
  9
$UCSORGRIGHT
 10
0.0
 20
0.0
 30
0.0
  9
$UCSORGFRONT
 10
0.0
 20
0.0
 30
0.0
  9
$UCSORGBACK
 10
0.0
 20
0.0
 30
0.0
  9
$PUCSBASE
  2

  9
$PUCSNAME
  2

  9
$PUCSORG
 10
0.0
 20
0.0
 30
0.0
  9
$PUCSXDIR
 10
1.0
 20
0.0
 30
0.0
  9
$PUCSYDIR
 10
0.0
 20
1.0
 30
0.0
  9
$PUCSORTHOREF
  2

  9
$PUCSORTHOVIEW
 70
     0
  9
$PUCSORGTOP
 10
0.0
 20
0.0
 30
0.0
  9
$PUCSORGBOTTOM
 10
0.0
 20
0.0
 30
0.0
  9
$PUCSORGLEFT
 10
0.0
 20
0.0
 30
0.0
  9
$PUCSORGRIGHT
 10
0.0
 20
0.0
 30
0.0
  9
$PUCSORGFRONT
 10
0.0
 20
0.0
 30
0.0
  9
$PUCSORGBACK
 10
0.0
 20
0.0
 30
0.0
  9
$USERI1
 70
     0
  9
$USERI2
 70
     0
  9
$USERI3
 70
     0
  9
$USERI4
 70
     0
  9
$USERI5
 70
     0
  9
$USERR1
 40
0.0
  9
$USERR2
 40
0.0
  9
$USERR3
 40
0.0
  9
$USERR4
 40
0.0
  9
$USERR5
 40
0.0
  9
$WORLDVIEW
 70
     1
  9
$SHADEDGE
 70
     3
  9
$SHADEDIF
 70
    70
  9
$TILEMODE
 70
     1
  9
$MAXACTVP
 70
    64
  9
$PINSBASE
 10
0.0
 20
0.0
 30
0.0
  9
$PLIMCHECK
 70
     0
  9
$PEXTMIN
 10
1.000000000000000E+20
 20
1.000000000000000E+20
 30
1.000000000000000E+20
  9
$PEXTMAX
 10
-1.000000000000000E+20
 20
-1.000000000000000E+20
 30
-1.000000000000000E+20
  9
$PLIMMIN
 10
0.0
 20
0.0
  9
$PLIMMAX
 10
420.0
 20
297.0
  9
$UNITMODE
 70
     0
  9
$VISRETAIN
 70
     1
  9
$PLINEGEN
 70
     0
  9
$PSLTSCALE
 70
     1
  9
$TREEDEPTH
 70
  3020
  9
$CMLSTYLE
  2
Standard
  9
$CMLJUST
 70
     0
  9
$CMLSCALE
 40
20.0
  9
$PROXYGRAPHICS
 70
     1
  9
$MEASUREMENT
 70
     1
  9
$CELWEIGHT
370
    -1
  9
$ENDCAPS
280
     0
  9
$JOINSTYLE
280
     0
  9
$LWDISPLAY
290
     0
  9
$INSUNITS
 70
     4
  9
$HYPERLINKBASE
  1

  9
$STYLESHEET
  1

  9
$XEDIT
290
     1
  9
$CEPSNTYPE
380
     0
  9
$PSTYLEMODE
290
     1
  9
$FINGERPRINTGUID
  2
{EC6BB858-51AA-46EC-B484-6C9CC7AB3E2E}
  9
$VERSIONGUID
  2
{FAEB1C32-E019-11D5-929B-00C0DF256EC4}
  9
$EXTNAMES
290
     1
  9
$PSVPSCALE
 40
0.0
  9
$OLESTARTUP
290
     0
  0
ENDSEC
  0
SECTION
  2
CLASSES
  0
CLASS
  1
ACDBDICTIONARYWDFLT
  2
AcDbDictionaryWithDefault
  3
ObjectDBX Classes
 90
        0
280
     0
281
     0
  0
CLASS
  1
VISUALSTYLE
  2
AcDbVisualStyle
  3
ObjectDBX Classes
 90
     4095
280
     0
281
     0
  0
CLASS
  1
TABLESTYLE
  2
AcDbTableStyle
  3
ObjectDBX Classes
 90
     4095
280
     0
281
     0
  0
CLASS
  1
DICTIONARYVAR
  2
AcDbDictionaryVar
  3
ObjectDBX Classes
 90
        0
280
     0
281
     0
  0
CLASS
  1
SCALE
  2
AcDbScale
  3
ObjectDBX Classes
 90
     1153
280
     0
281
     0
  0
CLASS
  1
CELLSTYLEMAP
  2
AcDbCellStyleMap
  3
ObjectDBX Classes
 90
     1152
280
     0
281
     0
  0
CLASS
  1
RASTERVARIABLES
  2
AcDbRasterVariables
  3
ISM
 90
        0
280
     0
281
     0
  0
CLASS
  1
MATERIAL
  2
AcDbMaterial
  3
ObjectDBX Classes
 90
     1153
280
     0
281
     0
  0
CLASS
  1
ACDBPLACEHOLDER
  2
AcDbPlaceHolder
  3
ObjectDBX Classes
 90
        0
280
     0
281
     0
  0
CLASS
  1
LAYOUT
  2
AcDbLayout
  3
ObjectDBX Classes
 90
        0
280
     0
281
     0
  0
ENDSEC
  0
SECTION
  2
TABLES
  0
TABLE
  2
VPORT
  5
8
330
0
100
AcDbSymbolTable
 70
     1
  0
VPORT
  5
29
330
8
100
AcDbSymbolTableRecord
100
AcDbViewportTableRecord
  2
*Active
 70
     0
 10
0.0
 20
0.0
 11
1.0
 21
1.0
 12
2223.393402028352
 22
8442.08780120174
 13
0.0
 23
0.0
 14
10.0
 24
10.0
 15
10.0
 25
10.0
 16
0.0
 26
0.0
 36
1.0
 17
-134.1869158878399
 27
0.0
 37
0.0
 40
17106.31636342441
 41
2.248421052631579
 42
50.0
 43
0.0
 44
0.0
 50
0.0
 51
0.0
 71
    16
 72
  1000
 73
     1
 74
     3
 75
     0
 76
     0
 77
     0
 78
     0
281
     0
 65
     1
110
0.0
120
0.0
130
0.0
111
1.0
121
0.0
131
0.0
112
0.0
122
1.0
132
0.0
 79
     0
146
0.0
  0
ENDTAB
  0
TABLE
  2
LTYPE
  5
5
330
0
100
AcDbSymbolTable
 70
     1
  0
LTYPE
  5
14
330
5
100
AcDbSymbolTableRecord
100
AcDbLinetypeTableRecord
  2
ByBlock
 70
     0
  3

 72
    65
 73
     0
 40
0.0
  0
LTYPE
  5
15
330
5
100
AcDbSymbolTableRecord
100
AcDbLinetypeTableRecord
  2
ByLayer
 70
     0
  3

 72
    65
 73
     0
 40
0.0
  0
LTYPE
  5
16
330
5
100
AcDbSymbolTableRecord
100
AcDbLinetypeTableRecord
  2
Continuous
 70
     0
  3
Solid line
 72
    65
 73
     0
 40
0.0
  0
ENDTAB
  0
TABLE
  2
LAYER
  5
2
330
0
100
AcDbSymbolTable
 70
     3
  0
LAYER
  5
10
330
2
100
AcDbSymbolTableRecord
100
AcDbLayerTableRecord
  2
0
 70
     0
 62
     7
  6
Continuous
370
    -3
390
F
  0
LAYER
  5
77
330
2
100
AcDbSymbolTableRecord
100
AcDbLayerTableRecord
  2
fluid
 70
     0
 62
     4
  6
Continuous
370
    -3
390
F
1001
AcAecLayerStandard
1000

1000

  0
LAYER
  5
7C
330
2
100
AcDbSymbolTableRecord
100
AcDbLayerTableRecord
  2
insets
 70
     0
 62
    30
  6
Continuous
370
    -3
390
F
1001
AcAecLayerStandard
1000

1000

  0
ENDTAB
  0
TABLE
  2
STYLE
  5
3
330
0
100
AcDbSymbolTable
 70
     1
  0
STYLE
  5
11
330
3
100
AcDbSymbolTableRecord
100
AcDbTextStyleTableRecord
  2
Standard
 70
     0
 40
0.0
 41
1.0
 50
0.0
 71
     0
 42
2.5
  3
txt
  4

  0
ENDTAB
  0
TABLE
  2
VIEW
  5
6
330
0
100
AcDbSymbolTable
 70
     0
  0
ENDTAB
  0
TABLE
  2
UCS
  5
7
330
0
100
AcDbSymbolTable
 70
     0
  0
ENDTAB
  0
TABLE
  2
APPID
  5
9
330
0
100
AcDbSymbolTable
 70
     2
  0
APPID
  5
12
330
9
100
AcDbSymbolTableRecord
100
AcDbRegAppTableRecord
  2
ACAD
 70
     0
  0
APPID
  5
79
330
9
100
AcDbSymbolTableRecord
100
AcDbRegAppTableRecord
  2
AcAecLayerStandard
 70
     0
  0
ENDTAB
  0
TABLE
  2
DIMSTYLE
  5
A
330
0
100
AcDbSymbolTable
 70
     1
100
AcDbDimStyleTable
  0
DIMSTYLE
105
27
330
A
100
AcDbSymbolTableRecord
100
AcDbDimStyleTableRecord
  2
ISO-25
 70
     0
 41
2.5
 42
0.625
 43
3.75
 44
1.25
 73
     0
 74
     0
 77
     1
 78
     8
140
2.5
141
2.5
143
0.03937007874016
147
0.625
171
     3
172
     1
178
     0
271
     2
272
     2
274
     3
278
    44
283
     0
284
     8
340
11
  0
ENDTAB
  0
TABLE
  2
BLOCK_RECORD
  5
1
330
0
100
AcDbSymbolTable
 70
     1
  0
BLOCK_RECORD
  5
1F
330
1
100
AcDbSymbolTableRecord
100
AcDbBlockTableRecord
  2
*Model_Space
340
22
  0
BLOCK_RECORD
  5
1B
330
1
100
AcDbSymbolTableRecord
100
AcDbBlockTableRecord
  2
*Paper_Space
340
1E
  0
BLOCK_RECORD
  5
23
330
1
100
AcDbSymbolTableRecord
100
AcDbBlockTableRecord
  2
*Paper_Space0
340
26
  0
ENDTAB
  0
ENDSEC
  0
SECTION
  2
BLOCKS
  0
BLOCK
  5
20
330
1F
100
AcDbEntity
  8
0
100
AcDbBlockBegin
  2
*Model_Space
 70
     0
 10
0.0
 20
0.0
 30
0.0
  3
*Model_Space
  1

  0
ENDBLK
  5
21
330
1F
100
AcDbEntity
  8
0
100
AcDbBlockEnd
  0
BLOCK
  5
1C
330
1B
100
AcDbEntity
 67
     1
  8
0
100
AcDbBlockBegin
  2
*Paper_Space
 70
     0
 10
0.0
 20
0.0
 30
0.0
  3
*Paper_Space
  1

  0
ENDBLK
  5
1D
330
1B
100
AcDbEntity
 67
     1
  8
0
100
AcDbBlockEnd
  0
BLOCK
  5
24
330
23
100
AcDbEntity
  8
0
100
AcDbBlockBegin
  2
*Paper_Space0
 70
     0
 10
0.0
 20
0.0
 30
0.0
  3
*Paper_Space0
  1

  0
ENDBLK
  5
25
330
23
100
AcDbEntity
  8
0
100
AcDbBlockEnd
  0
ENDSEC
  0
SECTION
  2
ENTITIES
  0
LWPOLYLINE
  5
76
330
1F
100
AcDbEntity
  8
0
100
AcDbPolyline
 90
       18
 70
     0
 43
0.0
 10
5181.753455206985
 20
10201.64031884879
 10
5284.597930001095
 20
10293.4868396757
 10
5359.119063089369
 20
10422.56122842194
 10
5392.28408735781
 20
10567.86669381185
 10
5381.146144858096
 20
10716.49220758323
 10
5326.694890659302
 20
10855.23174060504
 10
5233.768557652598
 20
10971.75767651999
 10
5110.624058326008
 20
11055.71617455624
 10
4968.203321855282
 20
11099.64715371765
 10
4819.161055678967
 20
11099.64715371765
 10
4676.740319208475
 20
11055.71617455624
 10
4553.595819881652
 20
10971.75767651999
 10
4460.669486874947
 20
10855.23174060504
 10
4406.218232676154
 20
10716.49220758323
 10
4395.080290176673
 20
10567.86669381185
 10
4428.245314445114
 20
10422.56122842194
 10
4502.766447533155
 20
10293.4868396757
 10
4601.753455206985
 20
10203.45929582302
  0
LWPOLYLINE
  5
7B
330
1F
100
AcDbEntity
  8
0
100
AcDbPolyline
 90
       20
 70
     0
 43
0.0
 10
4798.992310168222
 20
10466.34719688307
 10
4668.99045432359
 20
10275.66949511408
 10
4581.832700499101
 20
10356.54007237464
 10
4522.384142236086
 20
10459.50799572288
 10
4495.927044821903
 20
10575.42411330204
 10
4504.812237467151
 20
10693.98876937573
 10
4548.250231812941
 20
10804.66697393929
 10
4622.381371437339
 20
10897.624482814
 10
4720.618779265555
 20
10964.60161339906
 10
4834.233630504226
 20
10999.64715371765
 10
4953.130747030256
 20
10999.64715371765
 10
5066.745598268928
 20
10964.60161339906
 10
5164.983006096911
 20
10897.624482814
 10
5239.114145721309
 20
10804.66697393929
 10
5282.552140067099
 20
10693.98876937573
 10
5291.437332712347
 20
10575.42411330204
 10
5264.980235298397
 20
10459.50799572288
 10
5205.531677035149
 20
10356.54007237464
 10
5118.37392321066
 20
10275.66949511408
 10
4988.372067366028
 20
10466.34719688307
  0
LWPOLYLINE
  5
7D
330
1F
100
AcDbEntity
  8
0
100
AcDbPolyline
 90
       14
 70
     0
 43
0.0
 10
4988.463414638536
 20
10675.2249016961
 10
4988.89706877619
 20
10784.05046618184
 10
4986.770125694573
 20
10812.43254916231
 10
4976.371910907328
 20
10838.92676835107
 10
4958.626351430314
 20
10861.17899610522
 10
4935.110218097456
 20
10877.21202433646
 10
4907.913022554945
 20
10885.60124812684
 10
4879.451354979305
 20
10885.60124812684
 10
4852.254159436794
 20
10877.21202433652
 10
4828.738026104169
 20
10861.17899610522
 10
4810.992466626922
 20
10838.92676835107
 10
4800.594251839677
 20
10812.43254916231
 10
4798.46730875806
 20
10784.05046618184
 10
4798.992310168222
 20
10652.30129129214
  0
LWPOLYLINE
  5
7E
330
1F
100
AcDbEntity
  8
0
100
AcDbPolyline
 90
        2
 70
     0
 43
0.0
 10
4988.372067366028
 20
10466.34719688307
 10
4988.463414638536
 20
10675.2249016961
  0
LWPOLYLINE
  5
7F
330
1F
100
AcDbEntity
  8
0
100
AcDbPolyline
 90
        2
 70
     0
 43
0.0
 10
4798.992310168222
 20
10466.34719688307
 10
4798.992310168222
 20
10652.30129129214
  0
LWPOLYLINE
  5
80
330
1F
100
AcDbEntity
  8
0
100
AcDbPolyline
 90
        2
 70
     0
 43
0.0
 10
4601.753455206985
 20
10077.44533771202
 10
4601.753455206985
 20
10203.45929582302
  0
LWPOLYLINE
  5
81
330
1F
100
AcDbEntity
  8
0
100
AcDbPolyline
 90
        2
 70
     0
 43
0.0
 10
5181.390868637245
 20
10027.44533771202
 10
5181.753455206985
 20
10201.64031884879
  0
LWPOLYLINE
  5
82
330
1F
100
AcDbEntity
  8
0
100
AcDbPolyline
 90
        2
 70
     0
 43
0.0
 10
6081.390868637245
 20
6577.445337712019
 10
6031.390868637245
 20
6677.445337712019
  0
LWPOLYLINE
  5
83
330
1F
100
AcDbEntity
  8
0
100
AcDbPolyline
 90
        2
 70
     0
 43
0.0
 10
6231.390868637245
 20
6577.445337712019
 10
6281.390868637245
 20
6677.445337712019
  0
LWPOLYLINE
  5
84
330
1F
100
AcDbEntity
  8
0
100
AcDbPolyline
 90
        2
 70
     0
 43
0.0
 10
6231.390868637245
 20
5327.445337712019
 10
6281.390868637245
 20
5227.445337712019
  0
LWPOLYLINE
  5
85
330
1F
100
AcDbEntity
  8
0
100
AcDbPolyline
 90
        2
 70
     0
 43
0.0
 10
6081.390868637245
 20
5327.445337712019
 10
6031.390868637245
 20
5227.445337712019
  0
LWPOLYLINE
  5
86
330
1F
100
AcDbEntity
  8
0
100
AcDbPolyline
 90
        2
 70
     0
 43
0.0
 10
6531.390868637245
 20
6127.445337712019
 10
6631.390868637245
 20
6077.445337712019
  0
LWPOLYLINE
  5
87
330
1F
100
AcDbEntity
  8
0
100
AcDbPolyline
 90
        2
 70
     0
 43
0.0
 10
6531.390868637245
 20
6277.445337712019
 10
6631.390868637245
 20
6327.445337712019
  0
LWPOLYLINE
  5
88
330
1F
100
AcDbEntity
  8
0
100
AcDbPolyline
 90
        2
 70
     0
 43
0.0
 10
6031.390868637245
 20
4227.445337712019
 10
6031.390868637245
 20
3727.445337712019
  0
LWPOLYLINE
  5
89
330
1F
100
AcDbEntity
  8
0
100
AcDbPolyline
 90
        2
 70
     0
 43
0.0
 10
6281.390868637245
 20
4227.445337712019
 10
6281.390868637245
 20
3727.445337712019
  0
LWPOLYLINE
  5
8A
330
1F
100
AcDbEntity
  8
0
100
AcDbPolyline
 90
        2
 70
     0
 43
0.0
 10
6631.390868637245
 20
6077.445337712019
 10
7131.390868637245
 20
6077.445337712019
  0
LWPOLYLINE
  5
8B
330
1F
100
AcDbEntity
  8
0
100
AcDbPolyline
 90
        2
 70
     0
 43
0.0
 10
6631.390868637245
 20
6327.445337712019
 10
7131.390868637245
 20
6327.445337712019
  0
LWPOLYLINE
  5
8C
330
1F
100
AcDbEntity
  8
0
100
AcDbPolyline
 90
       18
 70
     0
 43
0.0
 10
5873.628825577442
 20
2412.778321976843
 10
5764.373113375157
 20
2311.403835748275
 10
5689.851980287116
 20
2182.329447002103
 10
5656.686956018675
 20
2037.023981612128
 10
5667.824898518156
 20
1888.398467840696
 10
5722.27615271695
 20
1749.658934818883
 10
5815.202485723887
 20
1633.132998903933
 10
5938.346985050477
 20
1549.174500867677
 10
6080.767721521202
 20
1505.24352170627
 10
6229.809987697285
 20
1505.24352170627
 10
6372.23072416801
 20
1549.174500867677
 10
6495.375223494601
 20
1633.132998903933
 10
6588.301556501538
 20
1749.658934818883
 10
6642.752810700098
 20
1888.398467840696
 10
6653.890753199812
 20
2037.023981612128
 10
6620.725728931371
 20
2182.329447002103
 10
6546.20459584333
 20
2311.403835748275
 10
6436.948883641046
 20
2412.778321976843
  0
LWPOLYLINE
  5
8D
330
1F
100
AcDbEntity
  8
0
100
AcDbPolyline
 90
       20
 70
     0
 43
0.0
 10
6249.97873320803
 20
2138.543478540912
 10
6379.980589052662
 20
2329.221180309843
 10
6467.138342877384
 20
2248.350603049341
 10
6526.586901140399
 20
2145.382679701037
 10
6553.043998554349
 20
2029.466562121943
 10
6544.158805909334
 20
1910.90190604825
 10
6500.720811563544
 20
1800.223701484687
 10
6426.589671939146
 20
1707.266192609979
 10
6328.35226411093
 20
1640.289062024862
 10
6214.737412872259
 20
1605.24352170627
 10
6095.840296346229
 20
1605.24352170627
 10
5982.225445107557
 20
1640.289062024862
 10
5883.988037279341
 20
1707.266192609979
 10
5809.856897654943
 20
1800.223701484687
 10
5766.418903309153
 20
1910.90190604825
 10
5757.533710664138
 20
2029.466562121943
 10
5783.990808078088
 20
2145.382679701037
 10
5843.439366341103
 20
2248.350603049341
 10
5930.597120165825
 20
2329.221180309843
 10
6060.598976010457
 20
2138.543478540912
  0
LWPOLYLINE
  5
8E
330
1F
100
AcDbEntity
  8
0
100
AcDbPolyline
 90
       14
 70
     0
 43
0.0
 10
6060.507628737949
 20
1929.665773727884
 10
6060.073974600062
 20
1820.840209242142
 10
6062.200917681679
 20
1792.458126261667
 10
6072.599132468924
 20
1765.963907072855
 10
6090.344691946171
 20
1743.711679318756
 10
6113.860825278796
 20
1727.678651087521
 10
6141.058020821307
 20
1719.289427297259
 10
6169.51968839718
 20
1719.289427297259
 10
6196.716883939691
 20
1727.678651087521
 10
6220.233017272316
 20
1743.711679318756
 10
6237.978576749563
 20
1765.963907072855
 10
6248.376791536808
 20
1792.458126261667
 10
6250.503734618425
 20
1820.840209242142
 10
6249.97873320803
 20
1952.589384131785
  0
LWPOLYLINE
  5
8F
330
1F
100
AcDbEntity
  8
0
100
AcDbPolyline
 90
        2
 70
     0
 43
0.0
 10
6060.598976010457
 20
2138.543478540912
 10
6060.507628737949
 20
1929.665773727884
  0
LWPOLYLINE
  5
90
330
1F
100
AcDbEntity
  8
0
100
AcDbPolyline
 90
        2
 70
     0
 43
0.0
 10
6249.97873320803
 20
2138.543478540912
 10
6249.97873320803
 20
1952.589384131785
  0
LWPOLYLINE
  5
91
330
1F
100
AcDbEntity
  8
0
100
AcDbPolyline
 90
        2
 70
     0
 43
0.0
 10
5873.628825577442
 20
2412.778321976843
 10
5906.390868637245
 20
2477.445337712019
  0
LWPOLYLINE
  5
92
330
1F
100
AcDbEntity
  8
0
100
AcDbPolyline
 90
        2
 70
     0
 43
0.0
 10
6436.948883641046
 20
2412.778321976843
 10
6406.390868637245
 20
2477.445337712019
  0
LWPOLYLINE
  5
93
330
1F
100
AcDbEntity
  8
0
100
AcDbPolyline
 90
        2
 70
     0
 43
0.0
 10
5906.390868637245
 20
3477.445337712019
 10
5906.390868637245
 20
2477.445337712019
  0
LWPOLYLINE
  5
94
330
1F
100
AcDbEntity
  8
0
100
AcDbPolyline
 90
        2
 70
     0
 43
0.0
 10
6406.390868637245
 20
3477.445337712019
 10
6406.390868637245
 20
2477.445337712019
  0
LWPOLYLINE
  5
95
330
1F
100
AcDbEntity
  8
0
100
AcDbPolyline
 90
        2
 70
     0
 43
0.0
 10
6406.390868637245
 20
3477.445337712019
 10
6281.390868637245
 20
3727.445337712019
  0
LWPOLYLINE
  5
96
330
1F
100
AcDbEntity
  8
0
100
AcDbPolyline
 90
        2
 70
     0
 43
0.0
 10
5906.390868637245
 20
3477.445337712019
 10
6031.390868637245
 20
3727.445337712019
  0
LWPOLYLINE
  5
97
330
1F
100
AcDbEntity
  8
0
100
AcDbPolyline
 90
        2
 70
     0
 43
0.0
 10
5781.390868637245
 20
6277.445337712019
 10
5681.390868637245
 20
6327.445337712019
  0
LWPOLYLINE
  5
98
330
1F
100
AcDbEntity
  8
0
100
AcDbPolyline
 90
        2
 70
     0
 43
0.0
 10
5781.390868637245
 20
6127.445337712019
 10
5681.390868637245
 20
6077.445337712019
  0
LWPOLYLINE
  5
99
330
1F
100
AcDbEntity
  8
0
100
AcDbPolyline
 90
        2
 70
     0
 43
0.0
 10
5681.390868637245
 20
6327.445337712019
 10
5181.390868637245
 20
6327.445337712019
  0
LWPOLYLINE
  5
9A
330
1F
100
AcDbEntity
  8
0
100
AcDbPolyline
 90
        2
 70
     0
 43
0.0
 10
5681.390868637245
 20
6077.445337712019
 10
5181.390868637245
 20
6077.445337712019
  0
LWPOLYLINE
  5
9B
330
1F
100
AcDbEntity
  8
0
100
AcDbPolyline
 90
        2
 70
     0
 43
0.0
 10
6206.390868637245
 20
6152.445337712019
 10
6306.390868637245
 20
6152.445337712019
  0
LWPOLYLINE
  5
9C
330
1F
100
AcDbEntity
  8
0
100
AcDbPolyline
 90
        2
 70
     0
 43
0.0
 10
6206.390868637245
 20
6252.445337712019
 10
6306.390868637245
 20
6252.445337712019
  0
LWPOLYLINE
  5
9D
330
1F
100
AcDbEntity
  8
0
100
AcDbPolyline
 90
        2
 70
     0
 43
0.0
 10
6206.390868637245
 20
5652.445337712019
 10
6206.390868637245
 20
5552.445337712019
  0
LWPOLYLINE
  5
9E
330
1F
100
AcDbEntity
  8
0
100
AcDbPolyline
 90
        2
 70
     0
 43
0.0
 10
6106.390868637245
 20
5652.445337712019
 10
6106.390868637245
 20
5552.445337712019
  0
LWPOLYLINE
  5
9F
330
1F
100
AcDbEntity
  8
0
100
AcDbPolyline
 90
        2
 70
     0
 43
0.0
 10
6106.390868637245
 20
6252.445337712019
 10
6106.390868637245
 20
6352.445337712019
  0
LWPOLYLINE
  5
A0
330
1F
100
AcDbEntity
  8
0
100
AcDbPolyline
 90
        2
 70
     0
 43
0.0
 10
6206.390868637245
 20
6252.445337712019
 10
6206.390868637245
 20
6352.445337712019
  0
LWPOLYLINE
  5
A1
330
1F
100
AcDbEntity
  8
0
100
AcDbPolyline
 90
        2
 70
     0
 43
0.0
 10
6106.390868637245
 20
6252.445337712019
 10
6006.390868637245
 20
6252.445337712019
  0
LWPOLYLINE
  5
A2
330
1F
100
AcDbEntity
  8
0
100
AcDbPolyline
 90
        2
 70
     0
 43
0.0
 10
6106.390868637245
 20
6152.445337712019
 10
6006.390868637245
 20
6152.445337712019
  0
LWPOLYLINE
  5
A3
330
1F
100
AcDbEntity
  8
0
100
AcDbPolyline
 90
        5
 70
     0
 43
0.0
 10
11853.59268464288
 20
14908.74236885349
 10
459.1890526316129
 20
14908.74236885349
 10
459.1890526316129
 20
564.3387368421063
 10
11853.59268464288
 20
564.3387368421063
 10
11853.59268464288
 20
14908.74236885349
  0
LWPOLYLINE
  5
A4
330
1F
100
AcDbEntity
  8
0
100
AcDbPolyline
 90
        4
 70
     1
 43
0.0
 10
12103.59268464288
 20
15158.74236885349
 10
209.1890526316129
 20
15158.74236885349
 10
209.1890526316129
 20
314.3387368421063
 10
12103.59268464288
 20
314.3387368421063
  0
LWPOLYLINE
  5
A5
330
1F
100
AcDbEntity
  8
0
100
AcDbPolyline
 90
        2
 70
     0
 43
0.0
 10
6281.390868637245
 20
6677.445337712019
 10
6281.390868637245
 20
7177.445337712019
  0
LWPOLYLINE
  5
A6
330
1F
100
AcDbEntity
  8
0
100
AcDbPolyline
 90
        2
 70
     0
 43
0.0
 10
6031.390868637245
 20
6677.445337712019
 10
6031.390868637245
 20
7177.445337712019
  0
LWPOLYLINE
  5
A7
330
1F
100
AcDbEntity
  8
0
100
AcDbPolyline
 90
       18
 70
     0
 43
0.0
 10
6439.152911697049
 20
7492.112353447079
 10
6548.408623899333
 20
7593.486839675646
 10
6622.929756987374
 20
7722.561228421819
 10
6656.094781255815
 20
7867.866693811793
 10
6644.956838756334
 20
8016.492207583226
 10
6590.505584557541
 20
8155.231740605039
 10
6497.579251550836
 20
8271.757676519988
 10
6374.434752224013
 20
8355.716174556244
 10
6232.014015753288
 20
8399.647153717651
 10
6082.971749577206
 20
8399.647153717651
 10
5940.55101310648
 20
8355.716174556244
 10
5817.40651377989
 20
8271.757676519988
 10
5724.480180772953
 20
8155.231740605039
 10
5670.028926574392
 20
8016.492207583226
 10
5658.890984074678
 20
7867.866693811793
 10
5692.056008343119
 20
7722.561228421819
 10
5766.57714143116
 20
7593.486839675646
 10
5875.832853633445
 20
7492.112353447079
  0
LWPOLYLINE
  5
A8
330
1F
100
AcDbEntity
  8
0
100
AcDbPolyline
 90
       20
 70
     0
 43
0.0
 10
6062.80300406646
 20
7766.347196883009
 10
5932.801148221828
 20
7575.669495114078
 10
5845.643394397106
 20
7656.540072374581
 10
5786.194836134091
 20
7759.507995722885
 10
5759.737738720141
 20
7875.424113302095
 10
5768.622931365389
 20
7993.988769375672
 10
5812.060925710946
 20
8104.666973939235
 10
5886.192065335345
 20
8197.624482813942
 10
5984.42947316356
 20
8264.60161339906
 10
6098.044324402232
 20
8299.647153717651
 10
6216.941440928262
 20
8299.647153717651
 10
6330.556292166933
 20
8264.60161339906
 10
6428.793699995149
 20
8197.624482813942
 10
6502.924839619547
 20
8104.666973939235
 10
6546.362833965337
 20
7993.988769375672
 10
6555.248026610352
 20
7875.424113302095
 10
6528.790929196402
 20
7759.507995722885
 10
6469.342370933387
 20
7656.540072374581
 10
6382.184617108898
 20
7575.669495114078
 10
6252.182761264034
 20
7766.347196883009
  0
LWPOLYLINE
  5
A9
330
1F
100
AcDbEntity
  8
0
100
AcDbPolyline
 90
       14
 70
     0
 43
0.0
 10
6252.274108536774
 20
7975.224901696038
 10
6252.707762674429
 20
8084.050466181779
 10
6250.580819592811
 20
8112.432549162255
 10
6240.182604805566
 20
8138.926768351066
 10
6222.437045328319
 20
8161.178996105165
 10
6198.920911995694
 20
8177.212024336401
 10
6171.723716453183
 20
8185.601248126779
 10
6143.262048877543
 20
8185.601248126779
 10
6116.064853335032
 20
8177.212024336517
 10
6092.548720002174
 20
8161.178996105165
 10
6074.803160524927
 20
8138.926768351066
 10
6064.404945737682
 20
8112.432549162255
 10
6062.278002656298
 20
8084.050466181779
 10
6062.80300406646
 20
7952.301291292137
  0
LWPOLYLINE
  5
AA
330
1F
100
AcDbEntity
  8
0
100
AcDbPolyline
 90
        2
 70
     0
 43
0.0
 10
6252.182761264034
 20
7766.347196883009
 10
6252.274108536774
 20
7975.224901696038
  0
LWPOLYLINE
  5
AB
330
1F
100
AcDbEntity
  8
0
100
AcDbPolyline
 90
        2
 70
     0
 43
0.0
 10
6062.80300406646
 20
7766.347196883009
 10
6062.80300406646
 20
7952.301291292137
  0
LWPOLYLINE
  5
AC
330
1F
100
AcDbEntity
  8
0
100
AcDbPolyline
 90
        2
 70
     0
 43
0.0
 10
6439.152911697049
 20
7492.112353447079
 10
6406.390868637245
 20
7427.445337712019
  0
LWPOLYLINE
  5
AD
330
1F
100
AcDbEntity
  8
0
100
AcDbPolyline
 90
        2
 70
     0
 43
0.0
 10
5875.832853633445
 20
7492.112353447079
 10
5906.390868637245
 20
7427.445337712019
  0
LWPOLYLINE
  5
AE
330
1F
100
AcDbEntity
  8
0
100
AcDbPolyline
 90
        2
 70
     0
 43
0.0
 10
6406.390868637245
 20
7427.445337712019
 10
6281.390868637245
 20
7177.445337712019
  0
LWPOLYLINE
  5
AF
330
1F
100
AcDbEntity
  8
0
100
AcDbPolyline
 90
        2
 70
     0
 43
0.0
 10
5906.390868637245
 20
7427.445337712019
 10
6031.390868637245
 20
7177.445337712019
  0
LWPOLYLINE
  5
B0
330
1F
100
AcDbEntity
  8
0
100
AcDbPolyline
 90
        2
 70
     0
 43
0.0
 10
6281.390868637245
 20
5227.445337712019
 10
6281.390868637245
 20
4227.445337712019
  0
LWPOLYLINE
  5
B1
330
1F
100
AcDbEntity
  8
0
100
AcDbPolyline
 90
        2
 70
     0
 43
0.0
 10
6031.390868637245
 20
5227.445337712019
 10
6031.390868637245
 20
4227.445337712019
  0
LWPOLYLINE
  5
B2
330
1F
100
AcDbEntity
  8
0
100
AcDbPolyline
 90
        5
 70
     0
 43
0.0
 10
7131.390868637245
 20
6077.445337712019
 10
8027.837478043977
 20
6077.445337712019
 10
8234.944259230513
 20
6077.445337712019
 10
8381.390868637245
 20
6223.891947118751
 10
8381.390868637245
 20
6430.998728305287
  0
LWPOLYLINE
  5
B3
330
1F
100
AcDbEntity
  8
0
100
AcDbPolyline
 90
        4
 70
     0
 43
0.0
 10
7131.390868637245
 20
6327.445337712019
 10
8027.837478043977
 20
6327.445337712019
 10
8131.390868637245
 20
6327.445337712019
 10
8131.390868637245
 20
6430.998728305287
  0
LWPOLYLINE
  5
B4
330
1F
100
AcDbEntity
  8
0
100
AcDbPolyline
 90
        5
 70
     0
 43
0.0
 10
7711.028282067506
 20
10077.44533771202
 10
8027.837478043977
 20
10077.44533771202
 10
8234.944259230513
 20
10077.44533771202
 10
8381.390868637245
 20
9930.998728305287
 10
8381.390868637245
 20
9723.891947118751
  0
LWPOLYLINE
  5
B5
330
1F
100
AcDbEntity
  8
0
100
AcDbPolyline
 90
        4
 70
     0
 43
0.0
 10
7331.390868637245
 20
9827.445337712019
 10
8027.837478043977
 20
9827.445337712019
 10
8131.390868637245
 20
9827.445337712019
 10
8131.390868637245
 20
9723.891947118751
  0
LWPOLYLINE
  5
B6
330
1F
100
AcDbEntity
  8
0
100
AcDbPolyline
 90
        2
 70
     0
 43
0.0
 10
8381.390868637245
 20
9723.891947118751
 10
8381.390868637245
 20
6430.998728305287
  0
LWPOLYLINE
  5
B7
330
1F
100
AcDbEntity
  8
0
100
AcDbPolyline
 90
        2
 70
     0
 43
0.0
 10
8131.390868637245
 20
9723.891947118751
 10
8131.390868637245
 20
6430.998728305287
  0
LWPOLYLINE
  5
B8
330
1F
100
AcDbEntity
  8
0
100
AcDbPolyline
 90
        5
 70
     0
 43
0.0
 10
5181.390868637245
 20
6077.445337712019
 10
4284.944259230513
 20
6077.445337712019
 10
4077.837478043977
 20
6077.445337712019
 10
3931.390868637245
 20
6223.891947118751
 10
3931.390868637245
 20
6430.998728305287
  0
LWPOLYLINE
  5
B9
330
1F
100
AcDbEntity
  8
0
100
AcDbPolyline
 90
        4
 70
     0
 43
0.0
 10
5181.390868637245
 20
6327.445337712019
 10
4284.944259230513
 20
6327.445337712019
 10
4181.390868637245
 20
6327.445337712019
 10
4181.390868637245
 20
6430.998728305287
  0
LWPOLYLINE
  5
BA
330
1F
100
AcDbEntity
  8
0
100
AcDbPolyline
 90
        5
 70
     0
 43
0.0
 10
4601.753455206985
 20
10077.44533771202
 10
4284.944259230513
 20
10077.44533771202
 10
4077.837478043977
 20
10077.44533771202
 10
3931.390868637245
 20
9930.998728305287
 10
3931.390868637245
 20
9723.891947118751
  0
LWPOLYLINE
  5
BB
330
1F
100
AcDbEntity
  8
0
100
AcDbPolyline
 90
        4
 70
     0
 43
0.0
 10
4981.390868637245
 20
9827.445337712019
 10
4284.944259230513
 20
9827.445337712019
 10
4181.390868637245
 20
9827.445337712019
 10
4181.390868637245
 20
9723.891947118751
  0
LWPOLYLINE
  5
BC
330
1F
100
AcDbEntity
  8
0
100
AcDbPolyline
 90
        2
 70
     0
 43
0.0
 10
3931.390868637245
 20
9723.891947118751
 10
3931.390868637245
 20
6430.998728305287
  0
LWPOLYLINE
  5
BD
330
1F
100
AcDbEntity
  8
0
100
AcDbPolyline
 90
        2
 70
     0
 43
0.0
 10
4181.390868637245
 20
9723.891947118751
 10
4181.390868637245
 20
6430.998728305287
  0
TEXT
  5
BE
330
1F
100
AcDbEntity
  8
0
100
AcDbText
 10
7422.095198140945
 20
1064.338736842106
 30
0.0
 40
734.2803532077291
  1
100µm1X
100
AcDbText
  0
LWPOLYLINE
  5
C0
330
1F
100
AcDbEntity
  8
0
100
AcDbPolyline
 90
        3
 70
     0
 43
0.0
 10
6006.390868637245
 20
6252.445337712019
 10
5956.390868637245
 20
6277.445337712019
 10
5781.390868637245
 20
6277.445337712019
  0
LWPOLYLINE
  5
C1
330
1F
100
AcDbEntity
  8
0
100
AcDbPolyline
 90
        3
 70
     0
 43
0.0
 10
6006.390868637245
 20
6152.445337712019
 10
5956.390868637245
 20
6127.445337712019
 10
5781.390868637245
 20
6127.445337712019
  0
LWPOLYLINE
  5
C2
330
1F
100
AcDbEntity
  8
0
100
AcDbPolyline
 90
        3
 70
     0
 43
0.0
 10
6306.390868637245
 20
6152.445337712019
 10
6356.390868637245
 20
6127.445337712019
 10
6531.390868637245
 20
6127.445337712019
  0
LWPOLYLINE
  5
C3
330
1F
100
AcDbEntity
  8
0
100
AcDbPolyline
 90
        3
 70
     0
 43
0.0
 10
6306.390868637245
 20
6252.445337712019
 10
6356.390868637245
 20
6277.445337712019
 10
6531.390868637245
 20
6277.445337712019
  0
LWPOLYLINE
  5
C4
330
1F
100
AcDbEntity
  8
0
100
AcDbPolyline
 90
        3
 70
     0
 43
0.0
 10
6106.390868637245
 20
6352.445337712019
 10
6081.390868637245
 20
6402.445337712019
 10
6081.390868637245
 20
6577.445337712019
  0
LWPOLYLINE
  5
C5
330
1F
100
AcDbEntity
  8
0
100
AcDbPolyline
 90
        3
 70
     0
 43
0.0
 10
6206.390868637245
 20
6352.445337712019
 10
6231.390868637245
 20
6402.445337712019
 10
6231.390868637245
 20
6577.445337712019
  0
LWPOLYLINE
  5
C6
330
1F
100
AcDbEntity
  8
0
100
AcDbPolyline
 90
        3
 70
     0
 43
0.0
 10
6106.390868637245
 20
5552.445337712019
 10
6081.390868637245
 20
5502.445337712019
 10
6081.390868637245
 20
5327.445337712019
  0
LWPOLYLINE
  5
C7
330
1F
100
AcDbEntity
  8
0
100
AcDbPolyline
 90
        3
 70
     0
 43
0.0
 10
6206.390868637245
 20
5552.445337712019
 10
6231.390868637245
 20
5502.445337712019
 10
6231.390868637245
 20
5327.445337712019
  0
LWPOLYLINE
  5
C8
330
1F
100
AcDbEntity
  8
0
100
AcDbPolyline
 90
        2
 70
     0
 43
0.0
 10
6531.390868637245
 20
5627.445337712019
 10
6631.390868637245
 20
5577.445337712019
  0
LWPOLYLINE
  5
C9
330
1F
100
AcDbEntity
  8
0
100
AcDbPolyline
 90
        2
 70
     0
 43
0.0
 10
6531.390868637245
 20
5777.445337712019
 10
6631.390868637245
 20
5827.445337712019
  0
LWPOLYLINE
  5
CA
330
1F
100
AcDbEntity
  8
0
100
AcDbPolyline
 90
        2
 70
     0
 43
0.0
 10
6631.390868637245
 20
5577.445337712019
 10
7631.390868637245
 20
5577.445337712019
  0
LWPOLYLINE
  5
CB
330
1F
100
AcDbEntity
  8
0
100
AcDbPolyline
 90
        2
 70
     0
 43
0.0
 10
6631.390868637245
 20
5827.445337712019
 10
7631.390868637245
 20
5827.445337712019
  0
LWPOLYLINE
  5
CC
330
1F
100
AcDbEntity
  8
0
100
AcDbPolyline
 90
        2
 70
     0
 43
0.0
 10
5781.390868637245
 20
5777.445337712019
 10
5681.390868637245
 20
5827.445337712019
  0
LWPOLYLINE
  5
CD
330
1F
100
AcDbEntity
  8
0
100
AcDbPolyline
 90
        2
 70
     0
 43
0.0
 10
5781.390868637245
 20
5627.445337712019
 10
5681.390868637245
 20
5577.445337712019
  0
LWPOLYLINE
  5
CE
330
1F
100
AcDbEntity
  8
0
100
AcDbPolyline
 90
        2
 70
     0
 43
0.0
 10
5681.390868637245
 20
5827.445337712019
 10
4681.390868637245
 20
5827.445337712019
  0
LWPOLYLINE
  5
CF
330
1F
100
AcDbEntity
  8
0
100
AcDbPolyline
 90
        2
 70
     0
 43
0.0
 10
5681.390868637245
 20
5577.445337712019
 10
4681.390868637245
 20
5577.445337712019
  0
LWPOLYLINE
  5
D0
330
1F
100
AcDbEntity
  8
0
100
AcDbPolyline
 90
        2
 70
     0
 43
0.0
 10
6206.390868637245
 20
5652.445337712019
 10
6306.390868637245
 20
5652.445337712019
  0
LWPOLYLINE
  5
D1
330
1F
100
AcDbEntity
  8
0
100
AcDbPolyline
 90
        2
 70
     0
 43
0.0
 10
6206.390868637245
 20
5752.445337712019
 10
6306.390868637245
 20
5752.445337712019
  0
LWPOLYLINE
  5
D2
330
1F
100
AcDbEntity
  8
0
100
AcDbPolyline
 90
        2
 70
     0
 43
0.0
 10
6106.390868637245
 20
5752.445337712019
 10
6006.390868637245
 20
5752.445337712019
  0
LWPOLYLINE
  5
D3
330
1F
100
AcDbEntity
  8
0
100
AcDbPolyline
 90
        2
 70
     0
 43
0.0
 10
6106.390868637245
 20
5652.445337712019
 10
6006.390868637245
 20
5652.445337712019
  0
LWPOLYLINE
  5
D4
330
1F
100
AcDbEntity
  8
0
100
AcDbPolyline
 90
        3
 70
     0
 43
0.0
 10
6006.390868637245
 20
5752.445337712019
 10
5956.390868637245
 20
5777.445337712019
 10
5781.390868637245
 20
5777.445337712019
  0
LWPOLYLINE
  5
D5
330
1F
100
AcDbEntity
  8
0
100
AcDbPolyline
 90
        3
 70
     0
 43
0.0
 10
6006.390868637245
 20
5652.445337712019
 10
5956.390868637245
 20
5627.445337712019
 10
5781.390868637245
 20
5627.445337712019
  0
LWPOLYLINE
  5
D6
330
1F
100
AcDbEntity
  8
0
100
AcDbPolyline
 90
        3
 70
     0
 43
0.0
 10
6306.390868637245
 20
5652.445337712019
 10
6356.390868637245
 20
5627.445337712019
 10
6531.390868637245
 20
5627.445337712019
  0
LWPOLYLINE
  5
D7
330
1F
100
AcDbEntity
  8
0
100
AcDbPolyline
 90
        3
 70
     0
 43
0.0
 10
6306.390868637245
 20
5752.445337712019
 10
6356.390868637245
 20
5777.445337712019
 10
6531.390868637245
 20
5777.445337712019
  0
LWPOLYLINE
  5
D8
330
1F
100
AcDbEntity
  8
0
100
AcDbPolyline
 90
        2
 70
     0
 43
0.0
 10
6206.390868637245
 20
6152.445337712019
 10
6206.390868637245
 20
5752.445337712019
  0
LWPOLYLINE
  5
D9
330
1F
100
AcDbEntity
  8
0
100
AcDbPolyline
 90
        2
 70
     0
 43
0.0
 10
6106.390868637245
 20
6152.445337712019
 10
6106.390868637245
 20
5752.445337712019
  0
LWPOLYLINE
  5
DA
330
1F
100
AcDbEntity
  8
0
100
AcDbPolyline
 90
        5
 70
     0
 43
0.0
 10
4681.390868637245
 20
5577.445337712019
 10
3784.944259230513
 20
5577.445337712019
 10
3577.837478043977
 20
5577.445337712019
 10
3431.390868637245
 20
5723.891947118751
 10
3431.390868637245
 20
5930.998728305287
  0
LWPOLYLINE
  5
DB
330
1F
100
AcDbEntity
  8
0
100
AcDbPolyline
 90
        4
 70
     0
 43
0.0
 10
4681.390868637245
 20
5827.445337712019
 10
3784.944259230513
 20
5827.445337712019
 10
3681.390868637245
 20
5827.445337712019
 10
3681.390868637245
 20
5930.998728305287
  0
LWPOLYLINE
  5
DC
330
1F
100
AcDbEntity
  8
0
100
AcDbPolyline
 90
        5
 70
     0
 43
0.0
 10
5181.390868637245
 20
12430.95079285158
 10
3784.94425923063
 20
12430.95079285158
 10
3577.837478044094
 20
12430.95079285158
 10
3431.390868637362
 20
12284.50418344485
 10
3431.390868637362
 20
12077.39740225831
  0
LWPOLYLINE
  5
DD
330
1F
100
AcDbEntity
  8
0
100
AcDbPolyline
 90
        4
 70
     0
 43
0.0
 10
5181.390868637245
 20
12180.95079285158
 10
3784.94425923063
 20
12180.95079285158
 10
3681.390868637362
 20
12180.95079285158
 10
3681.390868637362
 20
12077.39740225831
  0
LWPOLYLINE
  5
DE
330
1F
100
AcDbEntity
  8
0
100
AcDbPolyline
 90
        2
 70
     0
 43
0.0
 10
3431.390868637362
 20
12077.39740225831
 10
3431.390868637245
 20
5930.998728305287
  0
LWPOLYLINE
  5
DF
330
1F
100
AcDbEntity
  8
0
100
AcDbPolyline
 90
        2
 70
     0
 43
0.0
 10
3681.390868637362
 20
12077.39740225831
 10
3681.390868637245
 20
5930.998728305287
  0
LWPOLYLINE
  5
E0
330
1F
100
AcDbEntity
  8
0
100
AcDbPolyline
 90
        2
 70
     0
 43
0.0
 10
6081.390868637245
 20
12380.95079285158
 10
6031.390868637245
 20
12480.95079285158
  0
LWPOLYLINE
  5
E1
330
1F
100
AcDbEntity
  8
0
100
AcDbPolyline
 90
        2
 70
     0
 43
0.0
 10
6231.390868637245
 20
12380.95079285158
 10
6281.390868637245
 20
12480.95079285158
  0
LWPOLYLINE
  5
E2
330
1F
100
AcDbEntity
  8
0
100
AcDbPolyline
 90
        2
 70
     0
 43
0.0
 10
6531.390868637245
 20
12230.95079285158
 10
6631.390868637245
 20
12180.95079285158
  0
LWPOLYLINE
  5
E3
330
1F
100
AcDbEntity
  8
0
100
AcDbPolyline
 90
        2
 70
     0
 43
0.0
 10
6531.390868637245
 20
12380.95079285158
 10
6631.390868637245
 20
12430.95079285158
  0
LWPOLYLINE
  5
E4
330
1F
100
AcDbEntity
  8
0
100
AcDbPolyline
 90
        2
 70
     0
 43
0.0
 10
6631.390868637245
 20
12180.95079285158
 10
7131.390868637245
 20
12180.95079285158
  0
LWPOLYLINE
  5
E5
330
1F
100
AcDbEntity
  8
0
100
AcDbPolyline
 90
        2
 70
     0
 43
0.0
 10
6631.390868637245
 20
12430.95079285158
 10
7131.390868637245
 20
12430.95079285158
  0
LWPOLYLINE
  5
E6
330
1F
100
AcDbEntity
  8
0
100
AcDbPolyline
 90
       18
 70
     0
 43
0.0
 10
6439.152911697049
 20
12795.61780858664
 10
6548.408623899333
 20
12896.99229481521
 10
6622.929756987374
 20
13026.06668356138
 10
6656.094781255815
 20
13171.37214895135
 10
6644.956838756334
 20
13319.99766272278
 10
6590.505584557541
 20
13458.7371957446
 10
6497.579251550836
 20
13575.26313165955
 10
6374.434752224013
 20
13659.2216296958
 10
6232.014015753288
 20
13703.15260885721
 10
6082.971749577206
 20
13703.15260885721
 10
5940.55101310648
 20
13659.2216296958
 10
5817.40651377989
 20
13575.26313165955
 10
5724.480180772953
 20
13458.7371957446
 10
5670.028926574392
 20
13319.99766272278
 10
5658.890984074678
 20
13171.37214895135
 10
5692.056008343119
 20
13026.06668356138
 10
5766.57714143116
 20
12896.99229481521
 10
5875.832853633445
 20
12795.61780858664
  0
LWPOLYLINE
  5
E7
330
1F
100
AcDbEntity
  8
0
100
AcDbPolyline
 90
       20
 70
     0
 43
0.0
 10
6062.80300406646
 20
13069.85265202257
 10
5932.801148221828
 20
12879.17495025364
 10
5845.643394397106
 20
12960.04552751414
 10
5786.194836134091
 20
13063.01345086244
 10
5759.737738720141
 20
13178.92956844165
 10
5768.622931365389
 20
13297.49422451523
 10
5812.060925710946
 20
13408.17242907879
 10
5886.192065335345
 20
13501.1299379535
 10
5984.42947316356
 20
13568.10706853862
 10
6098.044324402232
 20
13603.15260885721
 10
6216.941440928262
 20
13603.15260885721
 10
6330.556292166933
 20
13568.10706853862
 10
6428.793699995149
 20
13501.1299379535
 10
6502.924839619547
 20
13408.17242907879
 10
6546.362833965337
 20
13297.49422451523
 10
6555.248026610352
 20
13178.92956844165
 10
6528.790929196402
 20
13063.01345086244
 10
6469.342370933387
 20
12960.04552751414
 10
6382.184617108898
 20
12879.17495025364
 10
6252.182761264034
 20
13069.85265202257
  0
LWPOLYLINE
  5
E8
330
1F
100
AcDbEntity
  8
0
100
AcDbPolyline
 90
       14
 70
     0
 43
0.0
 10
6252.274108536774
 20
13278.7303568356
 10
6252.707762674429
 20
13387.55592132134
 10
6250.580819592811
 20
13415.93800430181
 10
6240.182604805566
 20
13442.43222349062
 10
6222.437045328319
 20
13464.68445124472
 10
6198.920911995694
 20
13480.71747947596
 10
6171.723716453183
 20
13489.10670326634
 10
6143.262048877543
 20
13489.10670326634
 10
6116.064853335032
 20
13480.71747947608
 10
6092.548720002174
 20
13464.68445124472
 10
6074.803160524927
 20
13442.43222349062
 10
6064.404945737682
 20
13415.93800430181
 10
6062.278002656298
 20
13387.55592132134
 10
6062.80300406646
 20
13255.8067464317
  0
LWPOLYLINE
  5
E9
330
1F
100
AcDbEntity
  8
0
100
AcDbPolyline
 90
        2
 70
     0
 43
0.0
 10
6252.182761264034
 20
13069.85265202257
 10
6252.274108536774
 20
13278.7303568356
  0
LWPOLYLINE
  5
EA
330
1F
100
AcDbEntity
  8
0
100
AcDbPolyline
 90
        2
 70
     0
 43
0.0
 10
6062.80300406646
 20
13069.85265202257
 10
6062.80300406646
 20
13255.8067464317
  0
LWPOLYLINE
  5
EB
330
1F
100
AcDbEntity
  8
0
100
AcDbPolyline
 90
        2
 70
     0
 43
0.0
 10
6439.152911697049
 20
12795.61780858664
 10
6406.390868637245
 20
12730.95079285158
  0
LWPOLYLINE
  5
EC
330
1F
100
AcDbEntity
  8
0
100
AcDbPolyline
 90
        2
 70
     0
 43
0.0
 10
5875.832853633445
 20
12795.61780858664
 10
5906.390868637245
 20
12730.95079285158
  0
LWPOLYLINE
  5
ED
330
1F
100
AcDbEntity
  8
0
100
AcDbPolyline
 90
        2
 70
     0
 43
0.0
 10
6406.390868637245
 20
12730.95079285158
 10
6281.390868637245
 20
12480.95079285158
  0
LWPOLYLINE
  5
EE
330
1F
100
AcDbEntity
  8
0
100
AcDbPolyline
 90
        2
 70
     0
 43
0.0
 10
5906.390868637245
 20
12730.95079285158
 10
6031.390868637245
 20
12480.95079285158
  0
LWPOLYLINE
  5
EF
330
1F
100
AcDbEntity
  8
0
100
AcDbPolyline
 90
        2
 70
     0
 43
0.0
 10
5781.390868637245
 20
12380.95079285158
 10
5681.390868637245
 20
12430.95079285158
  0
LWPOLYLINE
  5
F0
330
1F
100
AcDbEntity
  8
0
100
AcDbPolyline
 90
        2
 70
     0
 43
0.0
 10
5781.390868637245
 20
12230.95079285158
 10
5681.390868637245
 20
12180.95079285158
  0
LWPOLYLINE
  5
F1
330
1F
100
AcDbEntity
  8
0
100
AcDbPolyline
 90
        2
 70
     0
 43
0.0
 10
5681.390868637245
 20
12430.95079285158
 10
5181.390868637245
 20
12430.95079285158
  0
LWPOLYLINE
  5
F2
330
1F
100
AcDbEntity
  8
0
100
AcDbPolyline
 90
        2
 70
     0
 43
0.0
 10
5681.390868637245
 20
12180.95079285158
 10
5181.390868637245
 20
12180.95079285158
  0
LWPOLYLINE
  5
F3
330
1F
100
AcDbEntity
  8
0
100
AcDbPolyline
 90
        2
 70
     0
 43
0.0
 10
6231.390868637245
 20
12230.95079285158
 10
6531.390868637245
 20
12230.95079285158
  0
LWPOLYLINE
  5
F4
330
1F
100
AcDbEntity
  8
0
100
AcDbPolyline
 90
        2
 70
     0
 43
0.0
 10
6231.390868637245
 20
12380.95079285158
 10
6531.390868637245
 20
12380.95079285158
  0
LWPOLYLINE
  5
F5
330
1F
100
AcDbEntity
  8
0
100
AcDbPolyline
 90
        2
 70
     0
 43
0.0
 10
6081.390868637245
 20
12380.95079285158
 10
5781.390868637245
 20
12380.95079285158
  0
LWPOLYLINE
  5
F6
330
1F
100
AcDbEntity
  8
0
100
AcDbPolyline
 90
        2
 70
     0
 43
0.0
 10
6081.390868637245
 20
12230.95079285158
 10
5781.390868637245
 20
12230.95079285158
  0
LWPOLYLINE
  5
F7
330
1F
100
AcDbEntity
  8
0
100
AcDbPolyline
 90
        2
 70
     0
 43
0.0
 10
6231.390868637245
 20
12230.95079285158
 10
6081.390868637245
 20
12230.95079285158
  0
LWPOLYLINE
  5
F8
330
1F
100
AcDbEntity
  8
0
100
AcDbPolyline
 90
        5
 70
     0
 43
0.0
 10
7631.390868637245
 20
5577.445337712019
 10
8527.837478043977
 20
5577.445337712019
 10
8734.944259230513
 20
5577.445337712019
 10
8881.390868637245
 20
5723.891947118751
 10
8881.390868637245
 20
5930.998728305287
  0
LWPOLYLINE
  5
F9
330
1F
100
AcDbEntity
  8
0
100
AcDbPolyline
 90
        4
 70
     0
 43
0.0
 10
7631.390868637245
 20
5827.445337712019
 10
8527.837478043977
 20
5827.445337712019
 10
8631.390868637245
 20
5827.445337712019
 10
8631.390868637245
 20
5930.998728305287
  0
LWPOLYLINE
  5
FA
330
1F
100
AcDbEntity
  8
0
100
AcDbPolyline
 90
        5
 70
     0
 43
0.0
 10
7131.390868637245
 20
12430.95079285158
 10
8527.837478043977
 20
12430.95079285158
 10
8734.944259230513
 20
12430.95079285158
 10
8881.390868637245
 20
12284.50418344485
 10
8881.390868637245
 20
12077.39740225831
  0
LWPOLYLINE
  5
FB
330
1F
100
AcDbEntity
  8
0
100
AcDbPolyline
 90
        4
 70
     0
 43
0.0
 10
7131.390868637245
 20
12180.95079285158
 10
8527.837478043977
 20
12180.95079285158
 10
8631.390868637245
 20
12180.95079285158
 10
8631.390868637245
 20
12077.39740225831
  0
LWPOLYLINE
  5
FC
330
1F
100
AcDbEntity
  8
0
100
AcDbPolyline
 90
        2
 70
     0
 43
0.0
 10
8881.390868637245
 20
12077.39740225831
 10
8881.390868637245
 20
5930.998728305287
  0
LWPOLYLINE
  5
FD
330
1F
100
AcDbEntity
  8
0
100
AcDbPolyline
 90
        2
 70
     0
 43
0.0
 10
8631.390868637245
 20
12077.39740225831
 10
8631.390868637245
 20
5930.998728305287
  0
LWPOLYLINE
  5
FE
330
1F
100
AcDbEntity
  8
0
100
AcDbPolyline
 90
       18
 70
     0
 43
0.0
 10
7131.028282067506
 20
10201.64031884879
 10
7028.183807273395
 20
10293.4868396757
 10
6953.662674185121
 20
10422.56122842194
 10
6920.497649916681
 20
10567.86669381185
 10
6931.635592416395
 20
10716.49220758323
 10
6986.086846615188
 20
10855.23174060504
 10
7079.013179621892
 20
10971.75767651999
 10
7202.157678948482
 20
11055.71617455624
 10
7344.578415419208
 20
11099.64715371765
 10
7493.620681595523
 20
11099.64715371765
 10
7636.041418066015
 20
11055.71617455624
 10
7759.185917392839
 20
10971.75767651999
 10
7852.112250399543
 20
10855.23174060504
 10
7906.563504598336
 20
10716.49220758323
 10
7917.701447097817
 20
10567.86669381185
 10
7884.536422829377
 20
10422.56122842194
 10
7810.015289741335
 20
10293.4868396757
 10
7711.028282067506
 20
10203.45929582302
  0
LWPOLYLINE
  5
FF
330
1F
100
AcDbEntity
  8
0
100
AcDbPolyline
 90
       20
 70
     0
 43
0.0
 10
7513.789427106269
 20
10466.34719688307
 10
7643.7912829509
 20
10275.66949511408
 10
7730.94903677539
 20
10356.54007237464
 10
7790.397595038405
 20
10459.50799572288
 10
7816.854692452587
 20
10575.42411330204
 10
7807.969499807339
 20
10693.98876937573
 10
7764.531505461549
 20
10804.66697393929
 10
7690.400365837151
 20
10897.624482814
 10
7592.162958008936
 20
10964.60161339906
 10
7478.548106770264
 20
10999.64715371765
 10
7359.650990244234
 20
10999.64715371765
 10
7246.036139005562
 20
10964.60161339906
 10
7147.79873117758
 20
10897.624482814
 10
7073.667591553181
 20
10804.66697393929
 10
7030.229597207392
 20
10693.98876937573
 10
7021.344404562144
 20
10575.42411330204
 10
7047.801501976093
 20
10459.50799572288
 10
7107.250060239341
 20
10356.54007237464
 10
7194.40781406383
 20
10275.66949511408
 10
7324.409669908462
 20
10466.34719688307
  0
LWPOLYLINE
  5
100
330
1F
100
AcDbEntity
  8
0
100
AcDbPolyline
 90
       14
 70
     0
 43
0.0
 10
7324.318322635954
 20
10675.2249016961
 10
7323.8846684983
 20
10784.05046618184
 10
7326.011611579917
 20
10812.43254916231
 10
7336.409826367162
 20
10838.92676835107
 10
7354.155385844177
 20
10861.17899610522
 10
7377.671519177034
 20
10877.21202433646
 10
7404.868714719545
 20
10885.60124812684
 10
7433.330382295186
 20
10885.60124812684
 10
7460.527577837696
 20
10877.21202433652
 10
7484.043711170321
 20
10861.17899610522
 10
7501.789270647569
 20
10838.92676835107
 10
7512.187485434813
 20
10812.43254916231
 10
7514.314428516431
 20
10784.05046618184
 10
7513.789427106269
 20
10652.30129129214
  0
LWPOLYLINE
  5
101
330
1F
100
AcDbEntity
  8
0
100
AcDbPolyline
 90
        2
 70
     0
 43
0.0
 10
7324.409669908462
 20
10466.34719688307
 10
7324.318322635954
 20
10675.2249016961
  0
LWPOLYLINE
  5
102
330
1F
100
AcDbEntity
  8
0
100
AcDbPolyline
 90
        2
 70
     0
 43
0.0
 10
7513.789427106269
 20
10466.34719688307
 10
7513.789427106269
 20
10652.30129129214
  0
LWPOLYLINE
  5
103
330
1F
100
AcDbEntity
  8
0
100
AcDbPolyline
 90
        2
 70
     0
 43
0.0
 10
7711.028282067506
 20
10077.44533771202
 10
7711.028282067506
 20
10203.45929582302
  0
LWPOLYLINE
  5
104
330
1F
100
AcDbEntity
  8
0
100
AcDbPolyline
 90
        2
 70
     0
 43
0.0
 10
7131.197073200252
 20
10027.44524382036
 10
7131.028282067506
 20
10201.64031884879
  0
LWPOLYLINE
  5
105
330
1F
100
AcDbEntity
  8
0
100
AcDbPolyline
 90
        2
 70
     0
 43
0.0
 10
4981.390868637245
 20
9827.445337712019
 10
5181.390868637245
 20
10027.44533771202
  0
LWPOLYLINE
  5
106
330
1F
100
AcDbEntity
  8
0
100
AcDbPolyline
 90
        2
 70
     0
 43
0.0
 10
7331.390868637245
 20
9827.445337712019
 10
7131.197073200252
 20
10027.44524382036
  0
ENDSEC
  0
SECTION
  2
OBJECTS
  0
DICTIONARY
  5
C
330
0
100
AcDbDictionary
281
     1
  3
ACAD_GROUP
350
D
  3
ACAD_IMAGE_VARS
350
6A
  3
ACAD_LAYOUT
350
1A
  3
ACAD_MLINESTYLE
350
17
  3
ACAD_PLOTSETTINGS
350
19
  3
ACAD_PLOTSTYLENAME
350
E
  3
ACAD_SCALELIST
350
40
  3
AcDbVariableDictionary
350
3D
  3
APPDATA
350
71
  0
DICTIONARY
  5
D
102
{ACAD_REACTORS
330
C
102
}
330
C
100
AcDbDictionary
281
     1
  0
RASTERVARIABLES
  5
6A
102
{ACAD_REACTORS
330
C
102
}
330
C
100
AcDbRasterVariables
 90
        0
 70
     1
 71
     1
 72
     1
  0
DICTIONARY
  5
1A
102
{ACAD_REACTORS
330
C
102
}
330
C
100
AcDbDictionary
281
     1
  3
Model
350
22
  3
Sheet1
350
1E
  3
Sheet2
350
26
  0
DICTIONARY
  5
17
102
{ACAD_REACTORS
330
C
102
}
330
C
100
AcDbDictionary
281
     1
  3
Standard
350
18
  0
DICTIONARY
  5
19
102
{ACAD_REACTORS
330
C
102
}
330
C
100
AcDbDictionary
281
     1
  0
ACDBDICTIONARYWDFLT
  5
E
102
{ACAD_REACTORS
330
C
102
}
330
C
100
AcDbDictionary
281
     1
  3
Normal
350
F
100
AcDbDictionaryWithDefault
340
F
  0
DICTIONARY
  5
40
102
{ACAD_REACTORS
330
C
102
}
330
C
100
AcDbDictionary
281
     1
  3
A0
350
41
  3
A1
350
42
  3
A2
350
43
  3
A3
350
44
  3
A4
350
45
  3
A5
350
46
  3
A6
350
47
  3
A7
350
48
  3
A8
350
49
  3
A9
350
4A
  3
B0
350
4B
  3
B1
350
4C
  3
B2
350
4D
  3
B3
350
4E
  3
B4
350
4F
  3
B5
350
50
  3
B6
350
51
  3
B7
350
52
  3
B8
350
53
  3
B9
350
54
  3
C0
350
55
  3
C1
350
56
  3
C2
350
57
  3
C3
350
58
  3
C4
350
59
  3
C5
350
5A
  3
C6
350
5B
  3
C7
350
5C
  3
C8
350
5D
  3
C9
350
5E
  3
D0
350
5F
  3
D1
350
60
  3
D2
350
61
  0
DICTIONARY
  5
3D
102
{ACAD_REACTORS
330
C
102
}
330
C
100
AcDbDictionary
281
     1
  3
CANNOSCALE
350
109
  3
XCLIPFRAME
350
70
  3
CANNOSCALE
350
108
  0
DICTIONARY
  5
71
102
{ACAD_REACTORS
330
C
102
}
330
C
100
AcDbDictionary
281
     1
  0
LAYOUT
  5
22
102
{ACAD_REACTORS
330
1A
102
}
330
1A
100
AcDbPlotSettings
  1

  2
none_device
  4
ISO_A3_(420.00_x_297.00_MM)
  6

 40
7.5
 41
20.0
 42
7.5
 43
20.0
 44
420.0
 45
297.0
 46
20.78282828282826
 47
0.0
 48
0.0
 49
0.0
140
0.0
141
0.0
142
1.0
143
1.155642023346303
 70
  1204
 72
     1
 73
     0
 74
     1
  7
monochrome.ctb
 75
     0
147
0.8653198653198654
148
-134.1869158878504
149
0.0
100
AcDbLayout
  1
Model
 70
     1
 71
     0
 10
0.0
 20
0.0
 11
420.0
 21
297.0
 12
0.0
 22
0.0
 32
0.0
 14
1.000000000000000E+20
 24
1.000000000000000E+20
 34
1.000000000000000E+20
 15
-1.000000000000000E+20
 25
-1.000000000000000E+20
 35
-1.000000000000000E+20
146
0.0
 13
0.0
 23
0.0
 33
0.0
 16
1.0
 26
0.0
 36
0.0
 17
0.0
 27
1.0
 37
0.0
 76
     0
330
1F
331
29
  0
LAYOUT
  5
1E
102
{ACAD_REACTORS
330
1A
102
}
330
1A
100
AcDbPlotSettings
  1

  2
none_device
  4

  6

 40
0.0
 41
0.0
 42
0.0
 43
0.0
 44
0.0
 45
0.0
 46
0.0
 47
0.0
 48
0.0
 49
0.0
140
0.0
141
0.0
142
1.0
143
1.0
 70
   688
 72
     0
 73
     0
 74
     5
  7

 75
    16
147
1.0
148
0.0
149
0.0
100
AcDbLayout
  1
Sheet1
 70
     1
 71
     1
 10
0.0
 20
0.0
 11
420.0
 21
297.0
 12
0.0
 22
0.0
 32
0.0
 14
1.000000000000000E+20
 24
1.000000000000000E+20
 34
1.000000000000000E+20
 15
-1.000000000000000E+20
 25
-1.000000000000000E+20
 35
-1.000000000000000E+20
146
0.0
 13
0.0
 23
0.0
 33
0.0
 16
1.0
 26
0.0
 36
0.0
 17
0.0
 27
1.0
 37
0.0
 76
     0
330
1B
  0
LAYOUT
  5
26
102
{ACAD_REACTORS
330
1A
102
}
330
1A
100
AcDbPlotSettings
  1

  2
none_device
  4

  6

 40
0.0
 41
0.0
 42
0.0
 43
0.0
 44
0.0
 45
0.0
 46
0.0
 47
0.0
 48
0.0
 49
0.0
140
0.0
141
0.0
142
1.0
143
1.0
 70
   688
 72
     0
 73
     0
 74
     5
  7

 75
    16
147
1.0
148
0.0
149
0.0
100
AcDbLayout
  1
Sheet2
 70
     1
 71
     2
 10
0.0
 20
0.0
 11
0.0
 21
0.0
 12
0.0
 22
0.0
 32
0.0
 14
0.0
 24
0.0
 34
0.0
 15
0.0
 25
0.0
 35
0.0
146
0.0
 13
0.0
 23
0.0
 33
0.0
 16
1.0
 26
0.0
 36
0.0
 17
0.0
 27
1.0
 37
0.0
 76
     0
330
23
  0
MLINESTYLE
  5
18
102
{ACAD_REACTORS
330
17
102
}
330
17
100
AcDbMlineStyle
  2
Standard
 70
     0
  3

 62
   256
 51
90.0
 52
90.0
 71
     2
 49
0.5
 62
   256
  6
BYLAYER
 49
-0.5
 62
   256
  6
BYLAYER
  0
ACDBPLACEHOLDER
  5
F
102
{ACAD_REACTORS
330
E
102
}
330
E
  0
SCALE
  5
41
102
{ACAD_REACTORS
330
40
102
}
330
40
100
AcDbScale
 70
     0
300
1:1
140
1.0
141
1.0
290
     1
  0
SCALE
  5
42
102
{ACAD_REACTORS
330
40
102
}
330
40
100
AcDbScale
 70
     0
300
1:2
140
1.0
141
2.0
290
     0
  0
SCALE
  5
43
102
{ACAD_REACTORS
330
40
102
}
330
40
100
AcDbScale
 70
     0
300
1:4
140
1.0
141
4.0
290
     0
  0
SCALE
  5
44
102
{ACAD_REACTORS
330
40
102
}
330
40
100
AcDbScale
 70
     0
300
1:5
140
1.0
141
5.0
290
     0
  0
SCALE
  5
45
102
{ACAD_REACTORS
330
40
102
}
330
40
100
AcDbScale
 70
     0
300
1:8
140
1.0
141
8.0
290
     0
  0
SCALE
  5
46
102
{ACAD_REACTORS
330
40
102
}
330
40
100
AcDbScale
 70
     0
300
1:10
140
1.0
141
10.0
290
     0
  0
SCALE
  5
47
102
{ACAD_REACTORS
330
40
102
}
330
40
100
AcDbScale
 70
     0
300
1:16
140
1.0
141
16.0
290
     0
  0
SCALE
  5
48
102
{ACAD_REACTORS
330
40
102
}
330
40
100
AcDbScale
 70
     0
300
1:20
140
1.0
141
20.0
290
     0
  0
SCALE
  5
49
102
{ACAD_REACTORS
330
40
102
}
330
40
100
AcDbScale
 70
     0
300
1:30
140
1.0
141
30.0
290
     0
  0
SCALE
  5
4A
102
{ACAD_REACTORS
330
40
102
}
330
40
100
AcDbScale
 70
     0
300
1:40
140
1.0
141
40.0
290
     0
  0
SCALE
  5
4B
102
{ACAD_REACTORS
330
40
102
}
330
40
100
AcDbScale
 70
     0
300
1:50
140
1.0
141
50.0
290
     0
  0
SCALE
  5
4C
102
{ACAD_REACTORS
330
40
102
}
330
40
100
AcDbScale
 70
     0
300
1:100
140
1.0
141
100.0
290
     0
  0
SCALE
  5
4D
102
{ACAD_REACTORS
330
40
102
}
330
40
100
AcDbScale
 70
     0
300
2:1
140
2.0
141
1.0
290
     0
  0
SCALE
  5
4E
102
{ACAD_REACTORS
330
40
102
}
330
40
100
AcDbScale
 70
     0
300
4:1
140
4.0
141
1.0
290
     0
  0
SCALE
  5
4F
102
{ACAD_REACTORS
330
40
102
}
330
40
100
AcDbScale
 70
     0
300
8:1
140
8.0
141
1.0
290
     0
  0
SCALE
  5
50
102
{ACAD_REACTORS
330
40
102
}
330
40
100
AcDbScale
 70
     0
300
10:1
140
10.0
141
1.0
290
     0
  0
SCALE
  5
51
102
{ACAD_REACTORS
330
40
102
}
330
40
100
AcDbScale
 70
     0
300
100:1
140
100.0
141
1.0
290
     0
  0
SCALE
  5
52
102
{ACAD_REACTORS
330
40
102
}
330
40
100
AcDbScale
 70
     0
300
1/128" = 1'-0"
140
0.0078125
141
12.0
290
     0
  0
SCALE
  5
53
102
{ACAD_REACTORS
330
40
102
}
330
40
100
AcDbScale
 70
     0
300
1/64" = 1'-0"
140
0.015625
141
12.0
290
     0
  0
SCALE
  5
54
102
{ACAD_REACTORS
330
40
102
}
330
40
100
AcDbScale
 70
     0
300
1/32" = 1'-0"
140
0.03125
141
12.0
290
     0
  0
SCALE
  5
55
102
{ACAD_REACTORS
330
40
102
}
330
40
100
AcDbScale
 70
     0
300
1/16" = 1'-0"
140
0.0625
141
12.0
290
     0
  0
SCALE
  5
56
102
{ACAD_REACTORS
330
40
102
}
330
40
100
AcDbScale
 70
     0
300
3/32" = 1'-0"
140
0.09375
141
12.0
290
     0
  0
SCALE
  5
57
102
{ACAD_REACTORS
330
40
102
}
330
40
100
AcDbScale
 70
     0
300
1/8" = 1'-0"
140
0.125
141
12.0
290
     0
  0
SCALE
  5
58
102
{ACAD_REACTORS
330
40
102
}
330
40
100
AcDbScale
 70
     0
300
3/16" = 1'-0"
140
0.1875
141
12.0
290
     0
  0
SCALE
  5
59
102
{ACAD_REACTORS
330
40
102
}
330
40
100
AcDbScale
 70
     0
300
1/4" = 1'-0"
140
0.25
141
12.0
290
     0
  0
SCALE
  5
5A
102
{ACAD_REACTORS
330
40
102
}
330
40
100
AcDbScale
 70
     0
300
3/8" = 1'-0"
140
0.375
141
12.0
290
     0
  0
SCALE
  5
5B
102
{ACAD_REACTORS
330
40
102
}
330
40
100
AcDbScale
 70
     0
300
1/2" = 1'-0"
140
0.5
141
12.0
290
     0
  0
SCALE
  5
5C
102
{ACAD_REACTORS
330
40
102
}
330
40
100
AcDbScale
 70
     0
300
3/4" = 1'-0"
140
0.75
141
12.0
290
     0
  0
SCALE
  5
5D
102
{ACAD_REACTORS
330
40
102
}
330
40
100
AcDbScale
 70
     0
300
1" = 1'-0"
140
1.0
141
12.0
290
     0
  0
SCALE
  5
5E
102
{ACAD_REACTORS
330
40
102
}
330
40
100
AcDbScale
 70
     0
300
1-1/2" = 1'-0"
140
1.5
141
12.0
290
     0
  0
SCALE
  5
5F
102
{ACAD_REACTORS
330
40
102
}
330
40
100
AcDbScale
 70
     0
300
3" = 1'-0"
140
3.0
141
12.0
290
     0
  0
SCALE
  5
60
102
{ACAD_REACTORS
330
40
102
}
330
40
100
AcDbScale
 70
     0
300
6" = 1'-0"
140
6.0
141
12.0
290
     0
  0
SCALE
  5
61
102
{ACAD_REACTORS
330
40
102
}
330
40
100
AcDbScale
 70
     0
300
1'-0" = 1'-0"
140
12.0
141
12.0
290
     0
  0
DICTIONARYVAR
  5
109
102
{ACAD_REACTORS
330
3D
102
}
330
3D
100
DictionaryVariables
280
     0
  1
1:1
  0
DICTIONARYVAR
  5
70
102
{ACAD_REACTORS
330
3D
102
}
330
3D
100
DictionaryVariables
280
     0
  1
0
  0
DICTIONARYVAR
  5
108
102
{ACAD_REACTORS
330
3D
102
}
330
3D
100
DictionaryVariables
280
     0
  1
1:1
  0
ENDSEC
  0
EOF
